Chord finger position

Chord finger position The following are examples
of how you can play a chord a
different way,
a few frets apart, all the way up the neck:




Different Ways to Play the 'A' Chord:

(A9)
e-----0-------5-------5-------9-------9-------12-------12-----
B-----2-------2-------5------10------10-------12-------14-----
G-----2-------2-------6-------9-------9-------12-------14-----
D-----2-------2-------7-------7------11-------11-------14-----
A-----0-------4-------7-------7------12-------12-------12-----
E-----0-------5-------5-------x-------x--------x-------12-----



Different Ways to Play the 'E' Chord:

(E9)
e-----0-------4-------4-------7-------7-------12-------12-----
B-----0-------5-------5-------7-------9--------9-------12-----
G-----1-------4-------4-------7-------9--------9-------13-----
D-----2-------2-------6-------6-------9--------9-------14-----
A-----2-------2-------7-------7-------7-------11-------14-----
E-----0------(0)-----(0)-----(0)-----(0)------12-------12-----

have fun !!!!!
Chord finger positionb lesson
try for another chord


3 Comments and opinion > Here..:

mr.owner Friday, 27 March, 2009  

let play together

Anonymous Sunday, 22 November, 2009  

It was extremely interesting for me to read the blog. Thanks for it. I like such themes and anything that is connected to this matter. I would like to read a bit more on that blog soon.

Anonymous Saturday, 23 January, 2010  

Keep on posting such stories. I love to read stories like that. BTW add some pics :)

  ©Online Guitar Lessons 2008-2010

  © Blogger template 'Tranquility' by ourblogtemplates.com 2008

Back to Online Guitar Lessons   

GO TO TOP