Tuning a Guitar - easy guitar tune method

Tuning a guitar is very hard for beginner, so.. i want to share about "how to tuning a guitar", this is easy way for beginner, let tune and have fun !!
Tuning a Guitar - easy guitar tune method
At the 6st string on 5th fret, the sound must same with loss string at 5th string
|--------------------------------| 1

|--------------------------------| 2

|--------------------------------| 3

|--------------------------------| 4

|----0---------------------------| 5

|--5-----------------------------| 6

At the 5st string on 5th fret, the sound must same with loss string at 4th string
|--------------------------------| 1

|--------------------------------| 2

|--------------------------------| 3

|-------0------------------------| 4

|----5---------------------------| 5

|--------------------------------| 6

At the 4st string on 5th fret, the sound must same with loss string at string no 3
|--------------------------------| 1

|--------------------------------| 2

|-------0------------------------| 3

|----5---------------------------| 4

|--------------------------------| 5

|--------------------------------| 6

 At the 3st string on 4th fret, the sound must same with loss string at string no 2
|-------------------------------| 1

|-----------0-------------------| 2

|---------4---------------------| 3

|-------------------------------| 4

|-------------------------------| 5

|-------------------------------| 6

At the 2st string on 5th fret, the sound must same with loss string at string no 1 
|------0------------------------| 1

|----5--------------------------| 2

|-------------------------------| 3

|-------------------------------| 4

|-------------------------------| 5

|-------------------------------| 6

That is easy : Tuning a Guitar - easy guitar tune method !!!
nb : 6 string is biggest string at guitar.


2 Comments and opinion > Here..:

Anonymous Friday, 15 January, 2010  

I will not agree on it. I assume nice post. Particularly the designation attracted me to study the sound story.

Ganjar Nugraha Friday, 15 January, 2010  

ok.. thank's for your comment, agree with you, this is about "sound", but this is really easy method to tune your guitar, i will post another tips for easy tune a guitar with sound included ..
have fun !!

  ©Online Guitar Lessons 2008-2010

  © Blogger template 'Tranquility' by ourblogtemplates.com 2008

Back to Online Guitar Lessons   

GO TO TOP