Choramitic Warm-Up - Joe Satriani Guitars Lessons

Everyone love play Guitar with fast tempo and accurate, but it's not easy guys, you have to play and train your finger more. Chromatic warm-up is one of the best Guitar Exercise for your finger skill. Joe Satriani is one of the best Guitar who play this Skill / Chromatic skill, and here we go some exercise from him.. take your time and play it more..

|--1-2---3------4----------------------------------
|------1---2------3-----4--------------------------
|------------1------2-----3-----4------------------
|---------------------1-----2-----3------4---------
|-----------------------------1-----2------3---4---
|-------------------------------------1------2---3-


|------------------------------------4----3---2-1--
|-----------------------------4----3----2---1------
|---------------------4-----3----2----1------------
|-------------4-----3-----2----1-------------------
|-------4---3-----2-----1--------------------------
|-4-4-3---2-----1----------------------------------



I hope you like it..
End of : Choramitic Warm-Up - Joe Satriani Guitars Lessons


2 Comments and opinion > Here..:

Anonymous Wednesday, 25 August, 2010  

weeewww.... a little bit hard brow..hehehe...

Ganjar .N Wednesday, 25 August, 2010  

@ it's one of my favorite warm up guitar lessons .. try it more dude.. it's good for your finger .. good luck

  ©Online Guitar Lessons 2008-2010

  © Blogger template 'Tranquility' by ourblogtemplates.com 2008

Back to Online Guitar Lessons   

GO TO TOP